rock
 
|tablatures   |lyrics   |discussion forums   |more tabs @ XGuitar.com

Rancid tabs

Hyena bass tab

From: robin@kwic.com (.)
    To: dwm3@po.cwru.edu
    Subject: basstabs
    Date: Sat, 11 Jan
    
    Hyena
    by RANCID

    Intro:

    G:------------------------------------------------------------------
    D:------0-1-0----------0-1-0---------0-1-0---------------3----------
    A:--1-3-------3-1--1-3-------3-1--3-1------3-1-3-2-3-4-5---5-4-3-3-1
    E:3---------------3--------------3----------------------------------

    Verse:

    G:------------------------
    D:--5-3-------------------
    A:------5-2-2-3-3-2-2-3-3-Repeat until Chorus
    E:3-----------------------

    Chorus:

    G:-------------------------------------------------------------
    D:------------------------3-3-3---3-3-3-3----------------------
    A:--------3-3-3-2-1-1-1-3-------3---------3-3-3-3-6-5-3-1-0----
    E:1-1-1-1---------------------------------------------------3-1         

    3rd Verse:

    G:----------------
    D:--------1-1-----
    A:------------1-3-
    E:1-1-1-1---------Repeat until below

    "Who can I trust when I'm taught to take and not give?" part

    G:-------------------------------
    E:1-1-1-1-1-3-1------------------
    D:--------------3-1-1-1-1-1-2-2-3
    A:-------------------------------Play chorus during guitar thing,
    then back to first verse Figured out and written by Fidget (bassist of Half
    Moon) Check out his link in Benji's link section!!!
  development and support by
dmitry ivanov