rock
 
|tablatures   |lyrics   |discussion forums   |more tabs @ XGuitar.com

Rancid tabs

Holiday Sunrise bass tab

Song: Holiday Sunrise
Band: Rancid
Album: S/T
tabbed by: Keith Mattson



  Intro 
G:--------------987--------------------------75-----987-------
D:-----------7>----987---------8910------------7540---987-----
A:--------------------97---8910-----10-9-7-5-------------97---
E:7-7-7-7-5>------------810--------------------------------810


G:------------------987------------------------------------------
D:----8910-------------987---------8910-12121212119--------------
A:8910--------------------97---8910----------------1211109-------
E:----------7-7-7-7---------810---------------------------1211109


G:987------------------------------------------------------------
D:---987---------8910--------------------------------------------
A:------97---8910------------------------------------------------
E:--------810---------7-7-7-7------------------------------------

  Verse
G:---------------------------------------------------------------
D:--777777-5544----777777-5544----777777-5544---------5----------
A:-------------7--------------7--------------7-555555---5--------
E:5--------------5--------------5--------------------------------

  Pre Chorus            Chorus
G:-----------------|---------------------------------------------
D:------112211-----|---------------------------------------------
A:--0022------2200-|----55442200----55442200---------------------
E:00---------------|-55----------55------------------------------

I think its right, if not, it's fucking close enough.
Email me if you find something wrong and want to be mean.
keithmattson@hotmail
  development and support by
dmitry ivanov