rock
 
|tablatures   |lyrics   |discussion forums   |more tabs @ XGuitar.com

Rancid tabs

Harry Bridges bass tab

Bass tab for Harry Bridges by Rancid

Verse
	  "The media claimed..."				 x2
G|-------|---------------------------------------------------------|
D|-------|---------------------------------------------------------|
A|-0-3-4-|-5--5-5-5--5-5-----------------------------5--5-5-5--5-5-|
E|-------|---------------3--3-3-3--3-3-1--1-1-3--3-3---------------|


Chorus

G|-----------------------------|
D|-----------------------------|
A|---------------5--5-5-5--5-5-|
E|-5--5-5-3--3-3---------------|


Riff 1 (after chorus)

G|-7--5------------------------------|
D|-------7--5-7-5--------------------|  Where (5) is first note of verse.
A|----------------7--5-----0-3-4-(5)-|  On last play, (5) = 5/0
E|----------------------5------------| 


Riff 2 (after riff 1 is played the second time)

G|-------------5----------------|
D|-------5-6-7---7-6-5----------|
A|-5-6-7---------------7-6-5----|  Repeat three times.
E|---------------------------8--|
  development and support by
dmitry ivanov