rock
 
|tablatures   |lyrics   |discussion forums   |more tabs @ XGuitar.com

Rancid tabs

Ghost Band guitar tab

Band: Rancid
 Song: Ghost Band
 Tabbed by: Mike G
 Email: danzerello@hotmail.com

  Chorus
 e|--------------------------------------------------------------------------|
 B|--------------------------------------------------------------------------|
 G|-8-8-8-8-8-8-8-8---------8-8-8-8----------------------------------8-8-8-8-|
 D|-8-8-8-8-8-8-8-8-6-6-6-6-8-8-8-8--10-10-10-10-10-10-10-10-8-8-8-8-8-8-8-8-|
 A|-6-6-6-6-6-6-6-6-6-6-6-6-6-6-6-6--10-10-10-10-10-10-10-10-8-8-8-8-6-6-6-6-|
 E|-----------------4-4-4-4----------8--8--8--8--8--8--8--8--6-6-6-6---------|

  Verse
 e|--------------------------------------------------------------------|
 B|--------------------------------------------------------------------|
 G|--------------------------------------------------------------------|
 D|------------------------8-8-8-8-8-8-8-8-8-8-8-----------------------|
 A|-6-6-6-6-6-6-6-6-6-6-6--6-6-6-6-6-6-6-6-6-6-6-----------------------|
 E|-4-4-4-4-4-4-4-4-4-4-4----------------------------------------------|
P.M . . . . . . . . . . .  . . . . . . . . . . .

  Pre-Chorus
 e|--------------------------------------------------------------------|
 B|--------------------------------------------------------------------|
 G|--------------8----------------------8------------------------------|
 D|-5-5-5-5-5-5--8--8-8-8--5-5-5-5-5-5--8--8-8-8-----------------------|
 A|-5-5-5-5-5-5--6--8-8-8--5-5-5-5-5-5--6--8-8-8-----------------------|
 E|-3-3-3-3-3-3-----6-6-6--3-3-3-3-3-3-----6-6-6-----------------------|

  Interlude
 e|----------------------------------------------------------------------------|
 B|----------------------------------------------------------------------------|
 G|----------------------------------------------------------------------------|
 D|----------------------------------------------------------------------------|
 A|-1-1-1-1-1-3-3-3-3-3------------6-5-3--1-1-1-1-1-3-3-3-3-3------------6-5-3-|
 E|---------------------3-3-3-3-3-----------------------------3-3-3-3-3--------|
P.M . . . . . . . . . . . . . . .  . . .  . . . . . . . . . . . . . . .  . . .

  Solo
 e|-----------------------------------------------------------------|
 B|-----------------------------------------------------------------|
 G|-6^-6^-6^-6^-6^-6^-6^-6^-6^-6^--8-7-5----------------------------|
 D|--------------------------------------8^-8-10-12-10-8----8-10-8^-|
 A|------------------------------------------------------10---------|
 E|-----------------------------------------------------------------|

  Con't
 e|-----------------------------------------------------------------|
 B|-----------------------------------------------------------------|
 G|--------------------------------------------7--------------------|
 D|----------------------------------------5-8----------------------|
 A|-8-7-8-7-8-8-10-10-10-8-7-8--7-8-8--5-8--------------------------|
 E|-----------------------------------------------------------------|
  development and support by
dmitry ivanov