rock
 
|tablatures   |lyrics   |discussion forums   |more tabs @ XGuitar.com

Rancid tabs

Ghetto Box guitar tab

GHETTO BOX

     A   D   D#  E
e|---X---X---X---X---|
B|---X---X---X---X---|
G|---X---7---8---9---|
D|---7---7---8---9---|
A|---7---5---6---7---|
E|---5---X---X---X---|


*NOTE: /=# of times note or chord is hit i.e G//=it "G" 3 times
       s=slide to
       pm=palm mute
       n.c.=no chord


INTRO:

A D A D#///
         Hey!

A D A D#///
         Hey!

VERSE (Tim):

   A                        D             E
My ghetto box is talkin' (attack from the backstreets)
    A                         D             E
The guitar case is rockin' (attack from the backstreets)
            A                   D             E
Now they're forward stalkin' (attack from the backstreets)
        A                        D             E
But the punks ain't stoppin'! (attack from the backstreets)


CHORUS (Matt):

    D(pm)                  E(pm)
Let go of my hand, I don't understand
A(pm)            D(pm)
Street lights coming through
D               E                A//// E//
Attack from the backstreets with you


VERSE (Tim):

A                   D             E
Cadillac rollin' (attack from the backstreets)
  A                     D             E
Police are patrolin' (attack from the backstreets)
      A                         D             E
We're safe where we're goin' (attack from the backstreets)
      A                D             E
Mississippi Highway (attack from the backstreets)


CHORUS (Matt):

D(pm)                     E(pm)
Took the van apart with a canine unit
A(pm)       D(pm)
Nazi cops, fuck you!
D               E                A//// E//
Attack from the backstreets with you 

A D A D#///
         Hey!

A D A D#///
         Hey!

SOLO:

   A    D  E  (x3)  A   D  E  D    E    A    D         E    A     E//
e|----------------------------2///-4///-0///-2///-2///-4///-5////-0//-|
B|----------------------------3///-5///-0///-3///-3///-5///-5////-0//-|
G|------7/-6/-(x3)-9///-7/-6/-----------------------------------------|
D|-7///-7/-6/------9///-7/-6/-----------------------------------------|
A|-7///---------------------------------------------------------------|
E|--------------------------------------------------------------------|


BRIDGE (Tim):

(n.c.)
My ghetto box is talkin' (attack from the backstreets)
(n.c.)
The guitar case is rockin' (attack from the backstreets)
(n.c.)
Now they're forward stalkin' (attack from the backstreets)
(n.c.)
But the punks ain't stoppin'! (attack from the backstreets)
 

CHORUS (Matt):

    D                      E
Let go of my hand, I don't understand
A                D
Street lights coming through
D               E                A//// E//
Attack from the backstreets with you


OUTRO:

A D A D#///  A (end)
         Hey!

:---------------------------------------------------:
|Corrections/additional transcriptions are welcome. |
|Send them to: 'punk.tabs@telia.com'                |
:---------------------------------------------------:
|Lyrics figured out by Jay B Thompson               |
:---------------------------------------------------:
|The Complete Rancid Guitar Tab Compilation         |
|(http://hem1.passagen.se/ak5/rancid/)              |
:---------------------------------------------------:

Last revised: March 27, 1999

  development and support by
dmitry ivanov