rock
 
|tablatures   |lyrics   |discussion forums   |more tabs @ XGuitar.com

Rancid tabs

Ghetto Box bass tab

Artist: Rancid
Album: Let's Go
Song: Ghetto Box
Track: 13
Tabber: rancid56

simple structure but im not sure about the chorus. u cud just improvise around the root notes


Intro
G:-----------
D:-----------
A:---5---666-  x2
E:-5---5-----

Verse
G:-----------------
D:-7-7-75----------
A:-------7-5-55575-  x4
E:-----------------

Chorus (not very sure on this bit but it sounds ok)
G:----------------------------------------------------------
D:--44775--66997---------44775---44775--66997---------------
A:-5------7-------44775-5-------5------7-------44775--77-77- x1
E:---------------5----------------------------5-------------

Verse
Chorus
Intro
Verse
Chorus
Verse (bass verse solo)
Chorus
Intro x1 (finish on A)

any questions or problems edhalliwell@hotmail.com
  development and support by
dmitry ivanov