rock
 
|tablatures   |lyrics   |discussion forums   |more tabs @ XGuitar.com

Rancid tabs

Gave It Away guitar tab

GAVE IT AWAY

(Lyrics coming in a while...)



     G   A   D
e|---X---X---X---|
B|---X---X---X---|
G|---X---X---7---|
D|---5---7---7---|
A|---5---7---5---|
E|---3---5---X---|

*NOTE: h=hammer on
       p=pull off
       s=slide to
       /=# of times note or chord is hit i.e. G//=hit "G" 3 times


INTRO (part 1, play slow)

   G        D   A G        D   A G       A  D     G        D
e|-------------------------------------------------------------|
B|-12h15p12----------------------------------------------------|
G|----------h14---11h14p11------------------------11h14p11-----|
D|-------------------------h12---9h12s14-12h14p12----------12--|
A|-------------------------------------------------------------|
E|-------------------------------------------------------------|

INTRO (part 2, play faster)

e|-------------------------------------------------------------|
B|-12h15p12----------------------------------------------------|
G|----------h14---11h14p11------------------------11h14p11-----|
D|-------------------------h12---9h12s14-12h14p12----------12--|
A|-------------------------------------------------------------|
E|-------------------------------------------------------------|

VERSE (play 4 times)

 
D/// G/// A/// D///


CHORUS


G/// D    A  G    D    A  G    D    A   G    D
     Gave it away Gave it away Gave it awa-a-ay


BRIDGE (same as intro part 2, except with words)

(play intro pt 2)

Gave it away gave it away gave it awa-a-y


STRUCTURE

1. Intro part 1
2. Intro part 2
3. Verse
4. Chorus
5. Verse
6. Chorus
7. Intro part 1
8. Bridge
9. Intro part 1 (end on "D")
  development and support by
dmitry ivanov