rock
 
|tablatures   |lyrics   |discussion forums   |more tabs @ XGuitar.com

Rancid tabs

Fall Back Down bass tab

Song : Fall Back Down
Band : Rancid
Album : Indestructible
Tabbed By : Lucky (Lucky.Bassiste@wanadoo.fr)

Intro
G--------------------------------|X2|
D--------------------------------|X2|
A---7-7------8-9-------0-------7-|X2|
E-79-9---------------------------|X2|

1st Verse
G-|----|-------------------------------------------------------------------
D-|----|-------------------------------------------------------------------
A-|--7-|77777777777777889999999999999999/0000000000000000/7777777777777----
E-|79-9|---------------------------------------------------------------979-

G-----------------------------------------------------------------------------------
D--------------------------------------------------9999777777777777999977776666-----
A-77777777777777889999999999999999/0000000000000000----------------------------9999-
E-----------------------------------------------------------------------------------

Chorus
G----------------------------------|---------------------------------
D----------------------------------|---------------------------------
A-77777788999999990000000077777----|7777778899999999000000007777--7--
E------------------------------979-|----------------------------79-9-

G----------------------------------|X2
D----------------------------------|X2
A-77777788999999990000000077777----|X2
E------------------------------979-|X2

G-----------------------------------------------------66-----------|X2
D------------------------------67899999999999999887799--9977-------|X2
A-----------------7777777777777-----------------------------9977---|X2
E-9999999999999999----------------------------------------------99-|X2

Guitar solo
G----------------------------------|X4|
D----------------------------------|X4|
A-7777778899999999000000007777--7--|X4|
E-----------------------------79-9-|X4|

2nd Verse
G--------------------------------------------------------------------
D--------------------------------------------------------------------
A-77777777777777889999999999999999/0000000000000000/7777777777777----
E----------------------------------------------------------------979-

G-----------------------------------------------------------------------------------
D-----------------------------------------------6789999777777777777999977776666-----
A-77777777777777889999999999999999/0000000000000-------------------------------9999-
E-----------------------------------------------------------------------------------

3rd Chorus
G----------------------------------|X2
D----------------------------------|X2
A-7-7-----9-9-----0-0-----7-7---7--|X2
E-----------------------------79-9-|X2

G---------------------------------|------------------------6--------
D---------------------------------|---------------------679-97-7----
A-77777788999999990000000077777---|777777889999999900-79------9-97--
E------------------------------979|------------------9------------9-

G---------------------------------|X3|------------------------6--------
D---------------------------------|X3|---------------------679-99996---
A-77777788999999990000000077777---|X3|777777889999999900-79---------7--
E------------------------------979|X3|------------------9------------9-

Last Guitar Solo (Outro)
G----------------------------------|X2|---------------------------------|----------------6----------------
D----------------------------------|X2|---------------------------------|-----------------97-797-7--------
A-77777788999999990000000077777----|X2|-7777778899999999000000007777--7-|7777778899999999---9---9--797----
E------------------------------979-|X2|-----------------------------79-9|-------------------------9---979-
  development and support by
dmitry ivanov