rock
 
|tablatures   |lyrics   |discussion forums   |more tabs @ XGuitar.com

Rancid tabs

Dope Sick Girl guitar tab

DOPE SICK GIRL


      A    D    E
e|----X----X----X----|
B|----X----X----X----|
G|----X----7----9----|
D|----7----7----9----|
A|----7----5----7----|
E|----5----X----X----|


(bass intro)


e|-5------------------------5--------------------5-|
B|-------------------------------------------------|
G|-------------------------------------------------|
D|-------------------------------------------------|
A|-------------------------------------------------|
E|-------------------------------------------------|
   This song's about a girl   who ripped me off  



e|-5-7---8---7----5-----3--------------------------|
B|-5-7---8---7----5-----3--------------------------|
G|-------------------------------------------------|
D|-------------------------------------------------|
A|-------------------------------------------------|
E|-------------------------------------------------|
     She was dope sick!  

RIFF A:


e|-------------------------------------------------|
B|-------------------------------------------------|
G|----------5------------5------------5---8---7--5-|
D|--5---8--------5---8--------5---8----------------|
A|-------------------------------------------------|
E|-------------------------------------------------|

A              D           E           A
Dope sick girl hit and run she took my money
A            D            E         A
Eighty seven dollars gone now she's running

D       A E    A
How was I I to know
     D          A             E                A
That girl could take my heart everywhere she'd go

A                D              E            A
Dope sick girl a rig and a ride she's got no freedom
A                   D           E           A
Little demons gonna hide inside she's gotta feed them

D       A E    A
How was I I to know
     D          A             E                A
That girl could take my heart everywhere she'd go

E      E E E E    E   
Everywheeeeeere...Everywhere she'd go

(RIFF A)

A              D             E                A
Dope sick girl there she was at the Methodone Clinic
A             D
Drank a cup a base coat she swore
E               A
Not to get back in it

D       A E    A
How was I I to know
     D          A             E                A
That girl could take my heart everywhere she'd go

A                D              E           A
Dope sick girl a rig and a ride to New York City
A                    D                    E                 A
Gonna run away gonna watch it burn in the heart of New York City

D       A E    A
How was I I to know
     D          A             E                A
That girl could take my heart everywhere she'd go

E      E E E E    E   
Everywheeeeeere...Everywhere she'd go

(RIFF A)

RIFF B:

note: b=bend                                            hold  bend
      s=slide                                           [--------]

e|-88888888-3s5-5-5-3s5-5-5-88888888-5-3-5-0-8b-88-8b-88-8b888888-8----8----8(slide down)-|
B|-88888888-3s5-5-5-3s5-5-5-88888888-5-3-5-0-8b-88-8b-88-8b888888-8----8----8(slide down)-|
G|----------------------------------------------------------------------------------------|
D|----------------------------------------------------------------------------------------|
A|----------------------------------------------------------------------------------------|
E|----------------------------------------------------------------------------------------|

                                                                  A    A    A
                                                                  Dope sick girl!

:---------------------------------------------------:
|Corrections/additional transcriptions are welcome. |
|Send them to: 'punk.tabs@usa.net'                  |
:---------------------------------------------------:
|Riff A by Jed Lippold                              |
:---------------------------------------------------:
|The Complete Rancid Guitar Tab Compilation         |
|(http://hem1.passagen.se/ak5/rancid/)              |
:---------------------------------------------------:
  development and support by
dmitry ivanov