rock
 
|tablatures   |lyrics   |discussion forums   |more tabs @ XGuitar.com

Rancid tabs

Don Giovanni guitar tab

this is a wicked song
this is pretty fun to play
i couldnt find any other tabs so this is a good start
J   E   S   S   E

e---------------------------
B---------------------------
G--6~--6~--4~--3~-----------
D--6~--6~--4~--3~-----------
A--4~--4~--2~--1~-----------
E---------------------------

e------------------------------7
B-------------------------------
G-------6-6h7-7-7/0------6h7-7--
D--7-5---------------7-5--------    x2
A--7-5---------------7-5--------
E--5-3---------------5-3--------

e---------------------------
B---------------------------
G--7-6------4-3-------------
D--7-6------4-3-------------    xtimes needed
A--5-4------2-1-------------
E---------------------------


e---------------------------
B---------------------------
G---------------------------
D--5--------7---------------    xtimes needed
A--5--------7---------------   
E--3--------5---------------

then u just keep doin those, youll  get it, thats the hole song
email me and add me jesse_skates@hotmail.com
  development and support by
dmitry ivanov