rock
 
|tablatures   |lyrics   |discussion forums   |more tabs @ XGuitar.com

Rancid tabs

Don Giovanni bass tab

Song:  Don Giovanni
Album: Rancid 2000
By:    BASSD 		>=play a couple of time

Intro
G|----------------------------------------------------|
D|----------------------------------------------------|
A|-5--4--2--1-----------------------------------------|
E|--------------6-3--6-3--6-3--6-3--------------------|

Verse x2
G|-----------------------------------------------------------|
D|-----------------------------------------------------------|
A|-5-4>-2-1>/5-4>-2-1>---------------------------------------|
E|---------------------/6-3>--6-3>--6-3>--6-3>---------------|

Email=rancid_ska@hotmail.com for comments.
(Change the --6-- to --5-- if it doesn't sound right)
  development and support by
dmitry ivanov