rock
 
|tablatures   |lyrics   |discussion forums   |more tabs @ XGuitar.com

Rancid tabs

Django bass tab

Artist: Rancid
Song: Django
Album: Indestructible
Bassist: Matt Freeman
Tuning: Standard

Intro
G|--------------|-------------|
D|--------6~----|-------------|
A|-4~-4~-----4~-|-44444---2-3-|
E|--------------|-------4-----|

Verse (picking's very fast)
G|-------------------------------------------|
D|------------------6666-4/6-4---------------|
A|-4444444444444444------------6-44444---2-3-|
E|-------------------------------------4-----|

Prechorus
G|----------------------------------------------|
D|----------------------------------------------|
A|-4444---2-3-4444---2-4--------2-3-44444---2-3-|
E|------4----------4-----444444-----------4-----|

G|------------------------------------|
D|------------------------------------|
A|-4444---2-3-4444---2-4--------2-3-4-|
E|------4----------4-----444444-------|

Chorus
G|-------------------------------|
D|-3-1-0-------------------------|
A|-------3-1-0-------3-----------|3x
E|-------------3-1-4---6-4-3-2-1-|

G|---------------------------------|
D|-3-1-0---------------------------|
A|-------3-1-0-------0-1-2-3-2-3-4-|
E|-------------3-1-4---------------|

Post Chorus  2x
G|---------------------------------------|
D|------------------66666666-------------|
A|-4444444444444444----------44444---2-3-|
E|---------------------------------4-----|

-verse

Prechorus
G|----------------------------------------|
D|-------4/6-4------------------4/6-4-----|
A|-4~-4~-------6-4~---2-3-4~-4~-------6-4-|
E|------------------4---------------------|

-chorus
-post chorus

Bridge
G|-------------------------------------|
D|------------------/77777777----------|
A|-5555555555555555-----------55555555-|
E|-------------------------------------|

G|------------------/14-14-14-14-14-14-14-14-77777777-|
D|----------------------------------------------------|
A|-5555555555555555-----------------------------------|
E|----------------------------------------------------|

-Verse
-First Prechorus
  development and support by
dmitry ivanov