rock
 
|tablatures   |lyrics   |discussion forums   |more tabs @ XGuitar.com

Rancid tabs

Disorder & Disarray bass tab

Ramcid
Disorder & Disarray

Intro and Chorus: (Repeat 1x for intro, 3x for chorus)
G:-------------------------------
D:-------------------------------
A:8-8-8-8-8-8-8-8-8-6------------
E:--------------------8-6--6-6-6-

Verse:
G:----------------------------------
D:----------------------------------
A:8-8-8-8-8-8-8-8-8-----------------
E:------------------8-8-8-8-6-6-6-6-

"Say goodbye when you see the sign":
G:---6--8--6-------------------------------------------------
D:------------8--6-------------------------------------------
A:6-----------------8-----------------------7-7-7-8-8-8-10-10
E:--------------------6--8--8-8-8-8-8-8-8-8------------------

Figured out and written by Fidget (bassist of Half Moon)
  development and support by
dmitry ivanov