rock
 
|tablatures   |lyrics   |discussion forums   |more tabs @ XGuitar.com

Rancid tabs

Detroit bass tab

DETROIT by RANCID

INTRO :

G-|----9-7-9--------9-----6---------|
D-|-----------9/8-6---6h7---8/9-----|
A-|--7--------------------------7---|
E-|---------------------------------|

pre verse :

G-|----9-7-9--------9-----6---------|
D-|-----------9/8-6---6h7---8/9-----|
A-|--7--------------------------7---|  faster
E-|---------------------------------|

verse :

     A     D     E     D
G-|------------------------------------------|
D-|-----------4------6-9-775544--------------|
A-|-----4-7-55--5-77-----------55------------|
E-|--55--------------------------------------|

pre chorus :

     A     D     E      D
G-|------------------------------------------|
D-|------------4------6----------------------|
A-|-----4-7-55---5-77---7--5-5-5-5-----------|
E-|--55--------------------------------------|

chorus :
  ( play fast ! ) 
     
G-|----5--------------------------------------|
D-|--7---7-5-----------5----------------------|
A-|----------7-6-5-4-7---7-6-5-4-5---5-5-5-5--| x2
E-|--------------------------------5----------|

    A     E    D  
G-|-------------------------------------------|
D-|-------------------------------------------|
A-|-------7-7-7-5-5-5-5-5---------------------|
E-|-5-5-5-------------------------------------|

pre verse : 
   A     D      E    D     
G-|-------------------------------------------|
D-|---------4---------------------------------|
A-|---4-7-5---5-7-7-7-5-5-5-5-----------------|
E-|-5-----------------------------------------|

guitar solo :
    A       G        D       C           C
G-|-----------------------------------|-------------------|
D-|-----------------------------------|-------------------|
A-|------------------5-55-55--3-33-33-|--3-33-33-33-33-33-|
E-|--5-55-55-3-33-33------------------|-------------------|


tabbed by PKFK
any comment or question ..... petit_keupon@caramail.com
  development and support by
dmitry ivanov