rock
 
|tablatures   |lyrics   |discussion forums   |more tabs @ XGuitar.com

Rancid tabs

Dead Bodies guitar tab

Rancid - DEAD BODIES


Chords:

    D#  A#  B   G#  E   F
e|--------------------------|
B|--------------------------|
G|--8---------------9---10--|
D|--8---8---9---6---9---10--|
A|--6---8---9---6---7---8---|
E|------6---7---4-----------|


Octaves:

    C   C#
e|---------| Slide from C to C#
B|---------| in the interlude
G|--5---6--|
D|---------|
A|--3---4--|
E|---------|


INTRO (x2):

G|---------------------------------------|
D|-----5--8--5---------------------------|
A|--6-----------8--5---------5-----------|
E|--------------------6---8-----8--6--6--|

G|---------------------------------------|
D|---------------------------------------|
A|--------------------6-66666-6-66666----|
E|--7-77-77--4-44-44---------------------|


VERSE (palm muted):

D#   A#      B     G#
  Disfigured and oblique
D#         A#       B      G#
  From the appetite that I seek
D#      A#     B    G#
  I'm a hungry cannibal
D#      A#    B  G#
  I'm a rabid animal

      D#        A#      B      G#
 My remains are being scattered
           D#          A#     B   G#
 I've been bludgeoned, I'm in pain
 D#      A#        B      G#
 Stomach pains are coming and they
 D#          A#    B    G#
 strike with demon speed


CHORUS (x2):

 D#
 Dead bodies everywhere
 A#
 Piles of blood, entrails and hair
     B                 G#
 I'm bleeding from the inside
          D#
 From the armageddon outside


VERSE (palm muted):

D#  A#      B       G#
 Reoccuring rotting dreams
D#         A#        B       G#
 From this place the demons' speak
D#  A#     B   G#
 My skin exfoliates
D#  A#       B    G#
 My patience terminates

D# A#        B    G# 
 Unfold to unholy urges
   D#           A#   B  G#
 Unearthed with urgency
     D#  A#        B          G#
 The holocaust was nothing compared
 D#      A#  B  G#
 to my lividity
 

CHORUS (x2)

(Dead bodies everywhere...)


INTERLUDE (octaves):

C/C#         C/C#
     In this oblong box
C/C#               C/C#
     That's eating you
C/C#             C/C#
  Yeah, there is nothing
        C/C#            ?
There's nothing you can do


CHORUS (x2)

(Dead bodies everywhere...)


OUTRO:

B    G#      D#     D#  E  F  (x3)
        Dead bodies!    

B   G#   D#
  development and support by
dmitry ivanov