rock
 
|tablatures   |lyrics   |discussion forums   |more tabs @ XGuitar.com

Rancid tabs

Dead Bodies bass tab

Band: Rancid
Song: Dead Bodies
Album: Rancid (2000)

Original Tabbed by: Shaun McDonald <diesel_weasel@lycos.com>

Corrected by: Tom Morris <triforce91@fcmail.com>

h - hammer on
. - pause
/ - slide up


Correction: The original intro had some wrong notes and was an octave 
high (I think) Its easier to play now.
Intro: (2x)

G|--------2---|------------|------------|------------|
D|0---4-------|4---2-------|--------2---|------------|
A|------------|--------4---|0---4-------|4---2---0---|
E|------------|------------|------------|------------|

G|--------------------------------|--------------------------------|
D|--------------------------------|--------------------------------|
A|1---1---1---1---1---1---1---1---|--------------------------------|
E|--------------------------------|3---3---3---3---3---3---3---3---|

G|--------------------------------|--------------------------------|
D|0--0--0--0--0--0--0--0--0--0--0-|0--0--0--0--0--0--0--0--0--0--0-|
A|--------------------------------|--------------------------------|
E|--------------------------------|--------------------------------|


Verse: (8x)

G|----------------|----------------|
D|0---0-----------|----------------|
A|--------0---0---|1---1-----------|
E|----------------|--------3-3-3-3-|


Chorus: (2x)

G|----------------|----------------|----------------|----------------|
D|0-0-0-0-0-0-0-0-|4---2---4---2-0-|----------------|----------------|
A|----------------|----------------|0-0-0-0-0-0-0-0-|4---2---4-2-0---|
E|----------------|----------------|----------------|----------------|

G|----------------|----------------|----------------|--------------2-|
D|----------------|----------------|0-0-0-0-0-0-0-0-|4---2---4-2-0---|
A|1-1-1-1-1-1-1-1-|----------------|----------------|----------------|
E|----------------|3-3-3-3-3-3-3-3-|----------------|----------------|


Verse (8x)

Chorus(2x)


Bridge: (7x)

G|----------------7---h---9-------|10------9-------10--9---7-------|
D|7-------10----------------------|--------------------------------|
A|--------------------------------|--------------------------------|
E|--------------------------------|--------------------------------|


End of bridge:

G|----------------9-------7-------|--------------------------------|
D|7-------10----------------------|10-----9--------8-------7-------|
A|--------------------------------|--------------------------------|
E|--------------------------------|--------------------------------|


Chorus (2x)


Outro:(3x)

G|----------------|----------------|----------------|----------------|
D|----------------|----------------|----------------|----------------|
A|1-1-1-1-1-1-1-1-|----------------|5-5-5-5-5-5-5-5-|5------7----9---|
E|----------------|3-3-3-3-3-3-3-3-|----------------|----------------|


End like so:

G|----------------|----------------|----------------|----------------|
D|----------------|----------------|----------------|----------------|
A|1-1-1-1-1-1-1-1-|----------------|5.--------------|----------------|
E|----------------|3-3-3-3-3-3-3-3-|----------------|----------------|
  development and support by
dmitry ivanov