rock
 
|tablatures   |lyrics   |discussion forums   |more tabs @ XGuitar.com

Rancid tabs

David Courtney bass tab

Song: David Courtney
Artist: Rancid
Album: Indestructible
Tuning: Standard
Tabbed By: ravenbassist   (raven_bassist@yahoo.com)

G|---------------------------------------------------------------
D|---------------------------------------------------------------
A|-5-4-3-2-0-2-3-4-5-3-2-0---2-3-5---2-3-5-5-3-5-6-7-6-5-4-3-2-0-
E|-------------------------3-------3-----------------------------

G|----------------------------------------------- x2
D|------------------------------------------7777-
A|-5-5555------5-5555-----------5555-7-7777------
E|--------5555------3333-3-3333------------------

                                       $=11th fret
G|---------------------------------------------------77-99-$$-99-77---
D|---------------------------------------------77-99----------------9-
A|---22-3-5---22-3-5---22-3-5---22-3-5---77-99------------------------
E|-3--------3--------3--------3--------7------------------------------

G|---------------------------------------------------------
D|-------------------------------------44-2-44-2-44-2------
A|---22-3-5---22-3-5---22-3-5---22-3-5----------------44-2-
E|-3--------3--------3--------3----------------------------

G|--------------------------------------------------------------- x2
D|---------------------------------------------------------------
A|-5-4-3-2-0-2-3-4-5-3-2-0---2-3-5---2-3-5-5-3-5-6-7-6-5-4-3-2-0-
E|-------------------------3-------3-----------------------------

Guitar solo
G|--------------------------------------------------------------------------- x2
D|------------------------------------------------------------------77777777-
A|-55555555----------55555555-------------------55555555-77777777----------
E|----------55555555----------33333333-33333333----------------------------

G|---------------------------------------------- x3
D|----------------------------------------------
A|----------------------------------------------
E|-333333333333333333333333-7777-5555-7777-5555-

G|-------------------------------------------
D|-------------------------------------------
A|-------------------------------------------
E|-333333333333333333333333-2222222222222222-

G|-------------------------------
D|-----------------------------7-
A|-5-------5-----------5---7-----
E|-----5-------3---3-------------

G|---------------------------------------------------------------
D|---------------------------------------------------------------
A|-5-4-3-2-0-2-3-4-5-3-2-0---2-3-5---2-3-5-5-3-5-6-7-6-5-4-3-2-0-
E|-------------------------3-------3-----------------------------

End on
G|---
D|---
A|-5-
E|---
  development and support by
dmitry ivanov