rock
 
|tablatures   |lyrics   |discussion forums   |more tabs @ XGuitar.com

Rancid tabs

Daly City Train bass tab

Daly City Train:
Verse/Bridge:
G|-------------------------------------------|
D|---2-0-------2-0-----3-2-3-2-3-2-3-5-5-5-5-|
A|-------2-3-------2-3-----------------------|
E|-3---------3-------------------------------|

G|-----------------------|
D|---2-5-3-5-------------|
A|-3---------5-3-2-0-2-3-|
E|-----------------------|

Chorus:
G|-----------------------------------------------------|
D|-----5-5-5-5-----5-5-5-5-----7-7-7-7-7-7-5-5-4-4-2-2-|
A|-------------3-3---------5-5-------------------------|
E|-3-3-------------------------------------------------|

Bridge:
G|-------------------------|
D|-------------------------|
A|-3-3-3-3-5-5-5-5---------|
E|-----------------3-3-3-3-|

-Adam
  development and support by
dmitry ivanov