rock
 
|tablatures   |lyrics   |discussion forums   |more tabs @ XGuitar.com

Rancid tabs

Crane Fist guitar tab

CRANE FIST


BASS:

Main:

G---------------------------------2----------------|
D---------2--4--4--2--------2--4-----4--2----------|
A---3--3--------------3--3-------------------------|
E--------------------------------------------------|

The little change:

G----------------------------------------|
D--5-5-5-5-5-5-5-5-5--3-3-3-3-3-3-3-3-3--|
A----------------------------------------|
E----------------------------------------|

Bassline under the guitar solo:

G--------------------------------------------------------------------
D-------5-5-5-----5-5-5-----5-5-5-----5-5-5--------------------------
A---3-3-------3-3-------3-3-------3-3-------------2-2-2-----2-2-2----
E---------------------------------------------0-0-------0-0----------

G-------------------------------------|
D-------------------------------------|
A------2-2-2-----2-2-2----------------|
E--0-0-------0-0----------------------|


GUITAR:

For most of the song, you play this little riff, based
around C7 and F#7

E------8----x---8--------------------------------|
B------8----x---8----7-----7-7-7-7-7-7-----------|
G------9----x---9----9-----9-9-9-9-9-9-----------|
D-----------x--------8-----8-8-8-8-8-8-----------|
A--10-------x--------9-----9-9-9-9-9-9-----------|
E---8--------------------------------------------|

Then, behind the solo, you play open C, then open E
(x32101 then 022100)

Solo:
E--0----------------------------|
B-----0--1------0--1s3--1s3--0--| (x2)
G-------------------------------|
D-------------------------------|
A-------------------------------|
E-------------------------------|


:---------------------------------------------------:
|Corrections/additional transcriptions are welcome. |
|Send them to: 'punk.tabs@usa.net'                  |
:---------------------------------------------------:
|Bassline by 'Derek Carlson'                        |
|Guitar part by 'BigFeet'                           |
:---------------------------------------------------:
|The Complete Rancid Guitar Tab Compilation         |
|(http://hem1.passagen.se/ak5/rancid/)              |
:---------------------------------------------------:
  development and support by
dmitry ivanov