rock
 
|tablatures   |lyrics   |discussion forums   |more tabs @ XGuitar.com

Rancid tabs

Corruption guitar tab

Hey all, heres a wicked song, and pretty easy to play! rancid(2000), one of thier best albums. Good,fast,hardcore punk, the way its supposed to be.

NOTE: strum pattern not shown!!

Intro

e-----------------
B-----------------
G--6--------------
D--6---5---4---2--
A--4---5---4---2--
E------3---2---0--

verse

e-------------------------
B-------------------------
G---------------6---5---
D---6---7---4---6---5---
A---6---7---4---4---3---
E---4---5---2-----------

riff #1

e-----------------------
B-----------------------
G---6---10---8---9------
D---6---10---8---9------
A---4---8----6---7------
E-----------------------

riff #2

e----------------0
B----------------0
G---6---7---8----1
D---6---7---8----2
A---4---5---6----2
E----------------0


Order of the song:

Intro   x2
Verse  x4
Riff #1  x2
Verse  x4
Riff #2  x2
Verse  x4
Intro  x2
Riff #1  x2
Riff #2  x2

ok, thats it. if you got any questions, e-mail me at loki_bickle_999@hotmail.com............PUNX NOT DEAD!!!!!
  development and support by
dmitry ivanov