rock
 
|tablatures   |lyrics   |discussion forums   |more tabs @ XGuitar.com

Rancid tabs

Coppers bass tab

Rancid - Coppers

Verse
G|-----------------------|---------------------|
D|-------5---------------|---------------------|
A|-----5---5-3-3-2-3-2-5-|-------2-3-5-5-3-2-0-|
E|-3-3-------------------|-0-0-0---------------|

Chorus                         variation of 2nd part
G|-------------|-----------||-----------|
D|-------------|-----------||-----------|
A|-------3-3\\0-|-----5-5\\0-||-5-5-3-2-0-|
E|-3-3\\0-------|-0-0-------||-----------|

Breakdown

A|-5~-|

end on E|-3-|
  development and support by
dmitry ivanov