rock
 
|tablatures   |lyrics   |discussion forums   |more tabs @ XGuitar.com

Rancid tabs

Born Frustrated bass tab

Intro/chorus:
G|----------------------------------------------------|
D|----1-4------2-2------------1-4------2-2------------|
A|-2-2------1-4------2-2---2-2------1-4------2-2----2-|
E|-------2-2------4-4---4-4------2-2------4-4---4-4---|

Verse:
G|--------------------------------------------------|
D|--------------------------------------------------|
A|----4-6---4-6---4-6---4-6-----2-----2-----2-----2-|
E|-4-4---4-4---4-4---4-4---0-0-4-0-0-4-0-0-4-0-0-4--|

G|----------------------------------------------------|
D|----------------------------------------------------|
A|----4-6---4-6---4-6---4-6-----2-----2--1-1-4-4-1----|
E|-4-4---4-4---4-4---4-4---0-0-4-0-0-4-22---------2-4-|

G|------------------------------------------------|
D|------------------------------------------------|
A|--4-6---4-6---4-6---4-6-----2-----2-----2-----2-|
E|-4---4-4---4-4---4-4---0-0-4-0-0-4-0-0-4-0-0-4--|

G|-----------------------------------------------------|
D|-----------------------------------------------------|
A|----4-6---4-6---4-6---4-6-----2-----2--1-1-4-4-1-4-2-|
E|-4-4---4-4---4-4---4-4---0-0-4-0-0-4-22--------------|

Bridgex2:
G|-4-4-2-4-4-2------------------------4---2-4---------------------------|
D|----4-------4-3-2-4-4-2-4-4-2------2-2-2----0-2-0-2-0-2-4-2-0-2-0-----|
A|---------------------4-------4-3-2-------------------------------2-0--|
E|--------------------------------------------------------------------2-|
  development and support by
dmitry ivanov