rock
 
|tablatures   |lyrics   |discussion forums   |more tabs @ XGuitar.com

Rancid tabs

Blackhawk Down bass tab

Band: Rancid
Song: Blackhawk Down
Tabbed by: Stevie Prozak

Verse
G|---------|---------|---------|---------|
D|---------|---------|---------|---------|
A|---------|---------|-4-4-4-4-|---------|
E|-4-4-4-4-|-4-4-4-4-|---------|-4-4-4-4-|

G|---------|---------|---------|---------|
D|---------|---------|---------|---------|
A|---------|---------|---------|-6-6-6-6-|
E|-4-4-4-4-|-4-4-4-4-|-6-6-6-6-|---------|

G|---------|---------|---------|---------|
D|-6-6-6-6-|-4-4-4-4-|-3-3-3-3-|-2-2-2-2-|
A|---------|---------|---------|---------|
E|---------|---------|---------|---------|

G|---------|---------|---------|
D|---------|---------|---1-----|
A|---------|---------|-1---4---|
E|-4-4-4-4-|-1-1-1-1-|---------|

End
G|---------|---------|---------|---------|
D|---------|---------|---------|---------|
A|---------|---------|---------|---------|
E|-4-4-4-4-|-4-4-4-4-|-4-4-4-4-|-4-4-4-4-|

G|---------|---------|---------|---------|
D|---------|---------|---------|---------|
A|-6-6-6-6-|-6-6-6-6-|-6-6-6-6-|-6-6-6-6-|
E|---------|---------|---------|---------|

G|---------|---------|---------|---------|---------|---------|---|
D|---------|---------|---------|---------|---------|---------|---|
A|---------|---------|---------|---------|---------|---------|---|
E|-4-4-4-4-|-4-4-4-4-|-4-4-4-4-|-4-4-4-4-|-4-4-4-4-|-4-4-4-4-|-4-|
  development and support by
dmitry ivanov