rock
 
|tablatures   |lyrics   |discussion forums   |more tabs @ XGuitar.com

Rancid tabs

Black Lung guitar tab

BLACK LUNG


    F    G    G#   C    A#   C#    
e---X----X----X----X----X----X----
B---X----X----X----X----X----X----
G---X----X----X----5----3----6----
D---3----5----6----5----3----6----
A---3----5----6----3----1----4----
E---1----3----4----X----X----X----


Intro:

Rhythm Guitar:

    G#        G         C
e|----------------------------------------|
B|----------------------------------------|
G|----------------------5----5----5----5--|
D|--6----6----5----5----5----5----5----5--|
A|--6----6----5----5----3----3----3----3--|
E|--4----4----3----3----------------------|


Intro Lead Guitar:

e|----------------------------------------|
B|----------------------------------------|
G|----5--3--5--7--5--3--5---5--3--3--5----|
D|----------------------------------------|
A|----------------------------------------|
E|----------------------------------------|


During the verse one guitar hits these notes:

e|---5--------------|
B|------6-----------|
G|-------------5----|
D|------------------|
A|------------------|
E|------------------|

G#  G  C (x4)

F                      C#          
Sign a petition on the working condition
C
Union is in bed (???) with the coal operators
F                  C#          
Carry our freedom, lookin for something
   C
To give your family a better life for every single day

F                    A#
Some things get me going
C#              G#
I got no one to blame
F               A#
Five o'clock is coming 
C#              G#
Do you feel the same
       A#             C#              G#  G  C
When a lonely whistle calls out your name

G#  G  C

F                         C#
All the men look the same when they come out the mine
C
No prejudice for the mighty black lung
F                      C#
Rank and file workers, rank and file minds 
   C
So take off the gloves and sock it to 'em
 
F                    A# 
Some things get me going
C#              G# 
I got no one to blame
F               A# 
Five o'clock is coming 
C#              G#
Do you feel the same 
       A#             C#              G#  G  C
When a lonely whistle calls out your name

G#  G  C

C (play C throughout)
Hey unbeliever 
Black lung feaver 
Transmit receiver 
Stand up deciever 
I don't like it either 
No prejudice for the black lung feaver -no

F                    A# 
Some things get me going
C#              G# 
I got no one to blame
F              A#
Five o'clock is coming
C#              G#
Do you feel the same
       A#             C#              G#  G  C
When a lonely whistle calls out your name

G#

:---------------------------------------------------:
|Corrections/additional transcriptions are welcome. |
|Send them to: 'punk.tabs@usa.net'                  |
:---------------------------------------------------:
|Transcribed by 'Derek Carlson'                     |
:---------------------------------------------------:
|The Complete Rancid Guitar Tab Compilation         |
|(http://hem1.passagen.se/ak5/rancid/)              |
:---------------------------------------------------:
  development and support by
dmitry ivanov