rock
 
|tablatures   |lyrics   |discussion forums   |more tabs @ XGuitar.com

Rancid tabs

Black Derby Jacket bass tab

Mxtabs.net
Song: Black Derby Jacket
Artist: Rancid
Album: Rancid 2000
Tabbed by: Ray "Chuck Taylor" Schmidt, bassist of Second Time Around


VERSE X2 (come in at 0:07) *=play 23-26 times
G----------------+
D----------------+
A---0*-543*-5---+
E-3*----------3*-+


CHORUS1  #=play 6-7 times
G--o-----2#--------o-------------+
D--o--5#-------5#--o-------------+
A--o--------3#-----o2#-2#-3#-3#-+
E--o------X3-------o-------------+


BRIDGE
G----------7-5-3-0-00-0------------7-5-3--0-00-0--------+  >then play
D-024-5-55------------------0-5-55----------------------+  VERSE X2,
A-----------------------2-3----------------------2-3-5--+  CHORUS1,
E-------------------------------------------------------+  BRIDGE,VERSE X2


CHORUS2 #=play 6-7 times
G--o--4-444-5-555--9--9-9-9-7-777--o--------------+
D--o--5-555-7-777-10-101010-9-999--o--------------+  >then play BRIDGE
A--o------------------------------o2#-2#-3#-3#--+
E--o--------------X3---------------o--------------+


OUTRO X5 %=play 7-10 times
G--o-----X5------o-----------+
D--o------5%-----o-------5~--+
A--o---320--320-o---320-----+
E--o3%----------o3%--------+
  development and support by
dmitry ivanov