rock
 
|tablatures   |lyrics   |discussion forums   |more tabs @ XGuitar.com

Rancid tabs

Axiom guitar tab

Rancid - Axiom
Tabbed By: Punk in Drublic
Email: phone_phoneman@hotmail.com

Tuning: Standard (E A D G B E)

Easy song, wicked bass solo, awesome band.

Intro/Choruses (play enough times to fill, listen for timing)
E|-----------||
B|-----------||
G|----3(12)--||
D|--5-3(12)--||
A|--5-1(10)--||
E|--3--------||


Verses (listen for timing and play enough of each to fill)
E|-------------------||
B|-------------------||
G|--5-10-5----5-3-5--||
D|--5-10-5----5-3-5--||
A|--3-8--3----3-1-3--||
E|-------------------||


End with this just before bass solo
E|-----||
B|-----||
G|--5--||
D|--5--||
A|--3--||
E|-----||


Order and whatnot
Intro (x4)
Verse (x2)
Intro (x2)
(Bass solo)
Intro (x4)
Verse (x2)
Chorus(x4)
Verse (x2)
Chorus(x4)
  development and support by
dmitry ivanov