rock
 
|tablatures   |lyrics   |discussion forums   |more tabs @ XGuitar.com

Rancid tabs

Arrested in Shanghai guitar tab

h-hammer
m-mute

This little riff is the entire beginning of the song. Than it is later played again during other parts of the song, but you don't play it as many times.



E|--------------------------------|
B|-10--9--7-m-77-h9-7-------------|
G|--------------------------------|
D|--------------------------------|
A|--------------------------------|
E|--------------------------------|

E|--------------------------------|
B|-10--9--7-m-77-h9-7-------------|
G|--------------------------------|
D|--------------------------------|
A|--------------------------------|
E|--------------------------------|

E|--------------------------------|
B|-10--9--7-m-77-h9-7-------------|
G|--------------------------------|
D|--------------------------------|
A|--------------------------------|
E|--------------------------------|

E|--------------------------------|
B|-10--9--7-m-77-h9-7-------------|
G|--------------------------------|
D|--------------------------------|
A|--------------------------------|
E|--------------------------------|

E|--------------------------------|
B|-10--9--7-m-77-h9-7-------------|
G|--------------------------------|
D|--------------------------------|
A|--------------------------------|
E|--------------------------------|

E|--------------------------------|
B|-10--9--7-m-77-h9-7-------------|
G|--------------------------------|
D|--------------------------------|
A|--------------------------------|
E|--------------------------------|
  development and support by
dmitry ivanov