rock
 
|tablatures   |lyrics   |discussion forums   |more tabs @ XGuitar.com

Rancid tabs

Arrested in Shanghai bass tab

Rancid  Arrested In Shanghai
Album : Indestructible !!!!

Tabbed by Razia

Intro X2
G|--------------------------|
D|--------------------------|
A|----------------------42--|
E|-5--5-0--0-2-2--2-0-2---4-|

G|--------------------------|
D|--------------------------|
A|--------------------------|
E|-5--5-0--0-2-2--2-0--2-4--|

Verse X4
G|--------------------------|
D|--------------------------|
A|--------------------------|
E|-5--5-0--0-2--2-0-0-2-4---|

Verse2
G|--------------------------|
D|--------------------------|
A|--------------------------|
E|-5--5-0--0-2-2--2-0-2-4---|

G|--------------------------|
D|--------------------------|
A|----------------------42--|
E|-5--5-0--0-2-2--2-0-2---4-|

Verse X4

Verse2

Verse X4

Chorus X5
G|-------------------------------|
D|-------------------------------|
A|-7-7---4-4---2---2-2-2-2-2-2-2-|
E|-------------------------------|

Two verses without bass and the bass enters with
E|-2---0--|
Verse X6

Chorus X8

Outro X8
G|--------------------------|
D|--------------------------|
A|--------------------------|
E|-5--5-0--0-2-2--2-0--2-4--|

The sixth one is more like
G|--------------------------|
D|--------------------------|
A|----------------------42--|
E|-5--5-0--0-2-2--2-0-2---4-|

RANCID OWNS
  development and support by
dmitry ivanov