rock
 
|tablatures   |lyrics   |discussion forums   |more tabs @ XGuitar.com

Rancid tabs

Antennas guitar tab

artist: Rancid
title: Antennas
album: "Rancid (2000)"

transcribed by: Nick Jensen 
e-mail: (snwboardpunk@punks.org)

key:
\slide down
+ palm mute


Tuning= standard (EADGBE)


Verse Riff
Fast picking w/ palm muting

	"Your sellin'..."
E|--------------------------------------------------
B|--------------------------------------------------
G|------------------------------------77777---------
D|----5-----------5-----------5-22222-77777-5-------
A|----5-----------5-----------5-22222-55555-5-------
E|----3333333333333333333333333-00000-------3-------
        +++++++++++++++++++++

Pre-Chorus

E|--------------------------------------------------
B|--------------------------------------------------
G|--------------------------------------------------
D|----7\6-55555-------777777------------------------
A|----5\4-33333-22222-555555------------------------
E|--------------00000-------------------------------

Chorus
Clean (no distortion)

(chords)=G   Em  D   G
      
E|-------3---0---2---3-----
B|-------3---0---3---3-----
G|-------0---0---2---0-----
D|-------0---2---0---0-----
A|-------2---2-------2-----
E|-------3---0-------3-----

"When you plan that your antenna's are pointed in the right direction"
"you make a deal in any situation"
"So with no   evacuation"
"Let California fall into the ***ing ocean" 
	
Then:	Verse Riff
	Pre-Chorus
	Chorus

On the last time, Lars and Tim play the chorus a little
differently, listen to it. 

Chorus (last time played)

E|-------------------
B|-------------------
G|-------- 2---------
D|-----2---0---0-----
A|-----2---0---2-----
E|-----0-------3-----

Then:	Outro

Outro
Played fast w/ distortion

E|--------------------------------------------------
B|--------------------------------------------------
G|--------------------------------------------------
D|---22222-77777-55555555555-22222-77777-5----------
A|---22222-55555-55555555555-22222-55555-5----------
E|---00000-------33333333333-00000-------3----------

"Let California fall into the ***ing ocean"
"Let California fall into the ***ing ocean"

End


It's a short song but still very cool,
let me know of any corrections, and 
Please rate this tab.
-Nick
  development and support by
dmitry ivanov