rock
 
|tablatures   |lyrics   |discussion forums   |more tabs @ XGuitar.com

Rancid tabs

Antennas bass tab

Song:  Antennas
Album: Rancid 2000		>=play a couple of time
Tabbed by: BassD

Intro/verse
G|-------------------------------------------------------|
D|-------------------------------------------------------|
A|--------5>------------5>------5-4-3>----5>-------------|
E|-3>--0>----3>--3>--0>----3>-3--------0>----3ring-------|

(no bass, I'm not too sure about this part)

Verse
G|------------------------------------------------------|
D|------------------------------------------------------|
A|--------5>------------5>------5-4-3>----5>------------|
E|-3>--0>----3>--3>--0>----3>-3--------0>----3ring------|

(no bass, same thing)

"Let California Fall in the Fucking Ocean"
G|-----------------------------------------------|
D|-----------------------------------------------|
A|----5>--------5>--------5>--------5>-----------|
E|-0>----3>--0>----3>--0>----3>--0>----3---------|

If you have have any questions?
emailme= rancid_ska@hotmail.com
===============================================================================
  development and support by
dmitry ivanov