rock
 
|tablatures   |lyrics   |discussion forums   |more tabs @ XGuitar.com

Rancid tabs

11th Hour bass tab

11th Hour:
Verse:
G|-------------------------| |-------------------------|
D|-----------------3/5-5-5-|*|-------------------------|
A|-3-3-------1/3-3---------|*|-------0-1-3-----5-2-3-2-|
E|-----3/1-1---------------| |-1-1-1-------3-3---------|

Chorus:
G|---------------------------| |---------------------------------|
D|---------------------------|*|---------------------------------|
A|-----------0-1-3-3-3-1-0-1-|*|---------------------------------|
E|-1-1-1-1-3-----------------| |-5-5-5-5-5-5-5-5-3-3-3-3-3-3-3-3-|

Bridge:
G|---------------------------------------------------|
D|-----------3-3-2-2---------------------3-3-1-1-0-0-|
A|-3-3-3-3-3-----------------------0-1-3-------------|
E|-------------------1-1-1-1-1-1-3-------------------|

-Adam
  development and support by
dmitry ivanov