rock
 
|tablatures   |lyrics   |discussion forums   |more tabs @ XGuitar.com

Ramones tabs

What a Wonderful World bass tab

What a wonderful world

The Ramones

Intro
|-------------|-------------|-------------|
|------2------|-------------|-------------|
|---|=====|---|-------------|-------------|
|-------------|-1-----------|-(1)---------|

                       4x
||---------------------||
||-*-----------------*-||
||-*-----------------*-||
||---1-1-1-1-1-1-1-1---||

Verse
|-----------------|-----------------|-----------------|
|-----------------|-----------------|-----------------|
|-----------------|-----------------|-----------------|
|-1-1-1-1-1-1-1-1-|-5-5-5-5-5-5-5-5-|-6-6-6-6-6-6-6-6-|

|-----------------|-----------------|-----------------|
|-----------------|-----------------|-----------------|
|-----------------|-----------------|-----------------|
|-5-5-5-5-5-5-5-5-|-3-3-3-3-3-3-3-3-|-1-1-1-1-1-1-1-1-|

|-----------------|-----------------|
|-----------------|-----------------|
|-4-4-4-4-4-4-4-4-|-6-6-6-6-6-6-6-6-|
|-----------------|-----------------|

Chorus
|---------------|----------------|----------------|-----------------|
|---------------|-----6----------|----------------|-----------------|
|-4---4-4---4---|-6-8----8-6-4---|-1--1-1-1-1-1---|-3---3---3---3---|
|---------------|----------------|----------------|-----------------|
                       or
                       |
                       V
               |----------------|
               |----------------|
               |-4-4-4---4-4-4--|
               |----------------|

|-----------------|------------------|--------------|-----------------|
|-----------------|------------------|--------------|-----------------|
|-----------------|------------------|-3--3-3---3---|-2h3-3-3-3-3-3-3-|
|-0h1--1--1--1-1--|-0h1--1--1--1-1---|--------------|-----------------|

Verse

Chorus

|-----------------|------------------|---------------|-----------------|
|-----------------|------------------|---------------|-----------------|
|-----------------|------------------|---------------|-----------------|
|-0h1--1--1--1-1--|-0h1--1--1-1---1--|-1h0h1--1h0h1--|-1-1-1-1-1-1-1-1-|

Bridge

||---------------------|------|--------------------------||
||-*-------------------|-0-/--|-----------------|-0-/--*-||
||-*-3-3-3-3-3-3-3-3-3-|--/-0-|-1-1-1-1-1-1-1-1-|--/-0-*-||
||---------------------|------|-----------------|--------||

                                         3x
||-------------------|-------------------||
||-*-----------------|-----------------*-||
||-*-5-5-5-5-5-5-5-5-|-0-0-0-0-0-0-0-0-*-||
||-------------------|-------------------||

|-----------------|-----------------|
|-----------------|-----------------|
|-1-1-1-1-1-1-1-1-|-3-3-3-3-3-3-3-3-|
|-----------------|-----------------|

Verse

Chorus

Outro
|-----------------|---------------|---------------|-----------------|
|-----------------|---------------|---------------|-----------------|
|-8---8-8---8-8---|-6---6-6--6-6--|-5--5-5---5-5--|-5-5-5---5-5-5-5-|
|-----------------|---------------|---------------|-----------------|

|-----------------|---------------|--------------|----------------|
|-----------------|---------------|--------------|----------------|
|-1---1-1---1-1---|-1-1--1-1-1-1--|-3--3-3--3-3--|-3-3-3---3-3-3--|
|-----------------|---------------|--------------|----------------|

                                                                    2x
|-----------------|---------------|---------------|-----------------|
|-----------------|---------------|---------------|-----------------|
|-8---8-8---8-8---|-6---6-6--6-6--|-5--5-5---5-5--|-5-5-5---5-5-5-5-|
|-----------------|---------------|---------------|-----------------|

|-----------------|---------------|--------------|----------------|
|-----------------|---------------|--------------|----------------|
|-1---1-1---1-1---|-1-1--1-1-1-1--|-3------------|----------------|
|-----------------|---------------|--------------|----------------|

|-------------------|----------------|---------------|----------------|---|
|-------------------|-----6----------|---------------|------8---------|---|
|-4---4-4----4-4----|-6-8-----8-6-4--|-6--6-6---6-6--|-8-10---6--6--6-|-8-|
|-------------------|----------------|---------------|----------------|---|
                       or                               or
                       |                                |
                       V                                V
               |-----------------|                   |------------------|
               |-----------------|                   |------------------|
               |-4-4-4-4-4-4-4-4-|                   |-6-6-6-6-6--6--6--|
               |-----------------|                   |------------------|

I hope you'll enjoy it. Please rate this tab
  development and support by
dmitry ivanov