rock
 
|tablatures   |lyrics   |discussion forums   |more tabs @ XGuitar.com

Ramones tabs

We Want the Airwaves guitar tab

Band:The Ramones
Song:We Want The Airwaves
Tabbed by:Ramones4ever

 pm=Palm MUte
 ~=Hold

Intro Lead
e|---------------------------------------------------------------------------|
B|---------------------------------------------------------------------------|
G|---------------------------------------------------------------------------|
D|----7----7-----9----9----10---10----12----9----10----10---9----7---5---5---|
A|-0----0-----0----0-----0----0-----0----0-----0----0-----0----0---0---0-----|
E|---------------------------------------------------------------------------|
Intro Lead Con't:
                   1st Time                    2nd
e|--------------|-------------------------|-----------------------------------|
B|--------------|-------------------------|-----------------------------------|
G|--------------|-------------------------|------------9~-9~-9~--99-77--------|
D|---7---9--5~--|-3-3---5-5---7~----3-3--2|-3-3--5-5---9~-9~-9~--------1010-99|
A|-0---0--------|-3-3---5-5---7~----3-3--2|-3-3--5-5---7~-7~-7~---------------|
E|--------------|-1-1---3-3---5~----1-1--0|-1-1--3-3--------------------------|
                                                                ......pm......
Verse And Chorus(Chorus Don't Palm Mute A)

e|---------------------------------------------------------------------------|
B|---------------------------------------------------------------------------|
G|---------------------------------------------------------------------------|
D|-777777---333---555--------------------------------------------------------|
A|-777777---333---555--------------------------------------------------------|
E|-555555---111---333--------------------------------------------------------|
   ..pm...
                                                            *=strum 15 times
Bridge
                                                1st time        2nd time
e|--------------------------------------------|----------|--------------------|
B|--------------------------------------------|----------|--------------------|
G|--------------------------------------------|----------|9*-----9~-----------|
D|-777777777777--333333333333--555555-3-3-5-5-|-7~--333-2|9--77--9~-----------|
A|-777777777777--333333333333--555555-3-3-5-5-|-7~--333-2|7--77--7~-----------|
E|-555555555555--111111111111--333333-1-1-3-3-|-5~--111-0|---55---------------|
                                                     ^
                                     Little lead riff over this part
                                        e|-5-----------------|
                                        B|-5-----------------|
                                        G|-7b-(7r)--5--7~----|
                                        D|-------------------|
                                        A|-------------------|
                                        E|-------------------|
ENd On this Chord
e|---------|
B|---------|
G|---------|
D|-7~------|
A|-7~------|
E|-5~------|
Intro
Versex4
chorusx4
Bridgex2
Versex4
Chorusx4
Bridgex2
Intro
Chorusx5
  development and support by
dmitry ivanov