rock
 
|tablatures   |lyrics   |discussion forums   |more tabs @ XGuitar.com

Ramones tabs

We Want the Airwaves bass tab

We want the Airwaves
By The Ramones
Tabbed by bassplayerarg@hotmail.com

Intro

|-----------------------------|
|-----------------------------|
|-------------------5-5-5-3-2-|
|-5-5-5-7-7-7-8-8-8-----------|

|-------------------------------|
|-------------------------------|
|-3-3-3-2-2-2-------------------|
|-------------5-5-5-3-3-3-5-7-3-|

1_

|------------------------|
|------------------------|
|------------------------|
|-0-3-5-3-5--1-1-1-0-0-0-|

2_

|-------------------------------------------|
|-------------------------------------------|
|-----------7-5-3-5-------------------------|
|-0-3-5-3-5---------5-5-5/7-7-7/10-10-10-10-|

Verse-Chorus

|---------------------------------|
|---------------------------------|
|---------------------------------|
|-5-5-5-5-5-5-5-5-1-1-1-3-3-3-3-3-|
  development and support by
dmitry ivanov