rock
 
|tablatures   |lyrics   |discussion forums   |more tabs @ XGuitar.com

Ramones tabs

Wart Hog bass tab

ARTIST - RAMONES
SONG - WART HOG

INTRO
G|--------------------------------------------------------------------------
D|--------------------------------------------------------------------------
A|---------------3-1~--------------3-1~--------------3-1~--------------3-1~-
E|--111111111111------111111111111------111111111111------111111111111------

VERSE
G|-----------------------------------------------------------------------------
D|-----------------------------------------------------------------------------
A|-----------------------------------------------------------------------------
E|-3-33/6-66/88888888-3-33/6-66/88888888-3-33/6-66/88888888-3-33/6-66/88888888-

G|---------------------
D|---------------------
A|-1-14-46~~-1-14-46~~-
E|---------------------

G|-----------------------------------------------------------------------------
D|-----------------------------------------------------------------------------
A|-----------------------------------------------------------------------------
E|-3-33/6-66/88888888-3-33/6-66/88888888-3-33/6-66/88888888-3-33/6-66/88888888-

CHORUS
G|--------------------------------------------------------------------------
D|--------------------------------------------------------------------------
A|---------------3-1~--------------3-1~--------------3-1~--------------3-1~-
E|--111111111111------111111111111------111111111111------111111111111------

VERSE
G|-----------------------------------------------------------------------------
D|-----------------------------------------------------------------------------
A|-----------------------------------------------------------------------------
E|-3-33/6-66/88888888-3-33/6-66/88888888-3-33/6-66/88888888-3-33/6-66/88888888-

G|-------------------------------------------------------------
D|-------------------------------------------------------------
A|-6-62-2---------6-62-2---------6-62-2---------6-62-2---------
E|-------4~444444-------4~444444-------4~444444-------4~444444-

G|-----------------------------------------------------------------------------
D|-----------------------------------------------------------------------------
A|-----------------------------------------------------------------------------
E|-3-33/6-66/88888888-3-33/6-66/88888888-3-33/6-66/88888888-3-33/6-66/88888888-

LAST CHORUS(S)
G|--------------------------------------------------------------------------
D|--------------------------------------------------------------------------
A|---------------3-1~--------------3-1~--------------3-1~--------------3-1~-
E|--111111111111------111111111111------111111111111------111111111111------


G|-------------------------------------------------
D|-------------------------------------------------
A|-1-14-46~~-1-14-46~~-8-811-11|13~~-8-811-11|13~~-
E|-------------------------------------------------

G|--------------------------------------------------------------------------
D|--------------------------------------------------------------------------
A|---------------3-1~--------------3-1~--------------3-1~--------------3-1~-
E|--111111111111------111111111111------111111111111------111111111111------

G|-------------------------------------------------
D|-------------------------------------------------
A|-1-14-46~~-1-14-46~~-8-811-11|13~~-8-811-11|13~~-
E|-------------------------------------------------

G|--------------------------------------------------------------------------
D|--------------------------------------------------------------------------
A|---------------3-1~--------------3-1~--------------3-1~--------------3-1-
E|--111111111111------111111111111------111111111111------111111111111------


AND THATS A 13 INCASE ANYONE WAS WONDERING
  development and support by
dmitry ivanov