rock
 
|tablatures   |lyrics   |discussion forums   |more tabs @ XGuitar.com

Ramones tabs

Tomorrow She Goes Away guitar tab

This is great song!!

Intro+Verses
E------------------------
B------------------------
G-------------------10-7-This riff is
D---7-7-7-7-7-7-7-7-10-7-for all verses
A---7-7-7-7-7-7-7-7--8-5- Count how many
E---5-5-5-5-5-5-5-5------ times yourself

Chorus
E----Sentence 1+3------ ----Sentence 2------
B---------------------- --------------------
G---10----12----------- -10----12-----------
D---10-X8-12-X8-10----- -10-X8-12-X8-7------
A----8----10----10-X16- --8----10----7-X16--
E----------------8----- -------------5------

----Sentence 4-----------
-------------------------
---10----12---------10-7-
---10-X8-12-X8-7----10-7-
----8----10----7-X8--8-5-
---------------5---------

Solo
--------------------------------------------------
---------------6-6-6-6-6-6-6-6-8-8-8-8-8-8-8-8----
---10~-12~-14~-5-5-5-5-5-5-5-5-7-7-7-7-7-7-7-7-9~-
--------------------------------------------------
--------------------------------------------------
--------------------------------------------------

-------------------------------------------------------
-------------------------------------------/10---------
-----------------------------------------------9-10----
----------------------------------------------------10-
-------------------------------------------------------
---1-1-1-1-1-1-1-1-3-3-3-3-3-3-3-3-5~~~~~~-------------Pickscrape

Outro
-------------------------------------------------
---------------6-6-6-6-6-6-6-6-8-8-8-8-8-8-8-8---
---10~-12~-14~-5-5-5-5-5-5-5-5-7-7-7-7-7-7-7-7-9~-
-------------------------------------------------
-------------------------------------------------
-------------------------------------------------
  development and support by
dmitry ivanov