rock
 
|tablatures   |lyrics   |discussion forums   |more tabs @ XGuitar.com

Ramones tabs

This Ain't Havana guitar tab

Artist: The Ramones
Song: This Ain't Havana
Album: End of the Century
Key:
/=Slide Down/up


Intro
|--------------|
|--------------|
|------5--9/7--|
|-7-7--5--9/7--| x4
|-7-7--3--7/5--|
|-5-5----------|


Verse:
|-------------------------------------|
|-------------------------------------|
|------------------9-9-9-9-9-9-9-9-9--|
|-7-7-7-7-7-7-7-7--9-9-9-9-9-9-9-9-9--| x4
|-7-7-7-7-7-7-7-7--7-7-7-7-7-7-7-7-7--|
|-5-5-5-5-5-5-5-5---------------------|


Chorus:
|-------------|
|-------------|
|---7----9----|  x4
|-7-7-7--9----|
|-7-5-7--7----|
|-5---5-------|

Bridge:
|-----------------|
|-----------------|
|-7-------9-------|
|-7---7---9----7--| x4
|-5---7---7----7--|
|-----5--------5--|

I haven't figured out that solo yet but rest assured if i ever do i will add it into this tab

Intro
Verse
Chorus
Verse
Intro
Bridge
Chorus
Verse
Intro
Bridge
Solo
Verse
Chorus x2
End in an A chord

Thats it i hope you like it please rate
  development and support by
dmitry ivanov