rock
 
|tablatures   |lyrics   |discussion forums   |more tabs @ XGuitar.com

Ramones tabs

The Job That Ate My Brain bass tab

The Job That Ate My Brain

Ramones
			x4
||---------------------------||
||-*---------------5-------*-||
||-*-5h7-7-7-7---7-----7-7-*-||
||---------------------------||

|-----------------|-----------------|-----------------|-----------------|
|-----------------|-----------------|-----------------|-----------------|
|-----------------|-----------------|-----------------|-----------------|
|-5-5-5-5-5-5-5-5-|-4-4-4-4-4-4-4-4-|-3-3-3-3-3-3-3-3-|-2-2-2-2-2-2-2-2-|

|-----------------|-----------------|-----------------|-----------------|
|-----------------|-----------------|-----------------|-----------------|
|-----------------|-----------------|-----------------|-----------------|
|-5-5-5-5-5-5-5-5-|-4-4-4-4-4-4-4-4-|-3-3-3-3-3-3-3-3-|-2-2-2-2-2-2-2-2-|

|-----------------|-----------------|-----------------|-----------------|
|-----------------|-----------------|-----------------|-----------------|
|-5-5-5-5-5-5-5-5-|-----------------|-5-5-5-5-5-5-5-5-|-----------------|
|-----------------|-3-3-3-3-3-3-3-3-|-----------------|-3-3-3-3-3-3-3-3-|

|-----------------|-----------------|-----------------|-----------------|
|-----------------|-----------------|-----------------|-----------------|
|-5-5-5-5-5-5-5-5-|-----------------|-2-2-2-2-2-2-2-2-|-2-2-2-2-2-2-2-2-|
|-----------------|-3-3-3-3-3-3-3-3-|-----------------|-----------------|

|-----------------|-----------------|-----------------|-----------------|
|-----------------|-----------------|-----------------|-----------------|
|-----------------|-----------------|-----------------|-----------------|
|-5-5-5-5-5-5-5-5-|-4-4-4-4-4-4-4-4-|-3-3-3-3-3-3-3-3-|-2-2-2-2-2-2-2-2-|

|-----------------|-----------------|-----------------|-----------------|
|-----------------|-----------------|-----------------|-----------------|
|-----------------|-----------------|-----------------|-----------------|
|-5-5-5-5-5-5-5-5-|-4-4-4-4-4-4-4-4-|-3-3-3-3-3-3-3-3-|-2-2-2-2-2-2-2-2-|

|-----------------|-----------------|-----------------|-----------------|
|-----------------|-----------------|-----------------|-----------------|
|-5-5-5-5-5-5-5-5-|-----------------|-5-5-5-5-5-5-5-5-|-----------------|
|-----------------|-3-3-3-3-3-3-3-3-|-----------------|-3-3-3-3-3-3-3-3-|

|-----------------|-----------------|-----------------|-----------------|
|-----------------|-----------------|-----------------|-----------------|
|-5-5-5-5-5-5-5-5-|-----------------|-2-2-2-2-2-2-2-2-|-2-2-2-2-2-2-2-2-|
|-----------------|-3-3-3-3-3-3-3-3-|-----------------|-----------------|

|-----------------|-----------------|-----------------|-----------------|
|-----------------|-----------------|-----------------|-----------------|
|-5-5-5-5-5-5-5-5-|-----------------|-5-5-5-5-5-5-5-5-|-----------------|
|-----------------|-3-3-3-3-3-3-3-3-|-----------------|-3-3-3-3-3-3-3-3-|

|-----------------|-----------------|-----------------|-----------------|
|-----------------|-----------------|-----------------|-----------------|
|-5-5-5-5-5-5-5-5-|-----------------|-2-2-2-2-2-2-2-2-|-2-2-2-2-2-2-2-2-|
|-----------------|-3-3-3-3-3-3-3-3-|-----------------|-----------------|

			x4
||---------------------------||
||-*---------------5-------*-||
||-*-5h7-7-7-7---7-----7-7-*-||
||---------------------------||

			x4
||---------------------------||
||-*-----------------------*-||
||-*-------------1-----4---*-||
||---3-3-3-3-3---------------||

|-----------------|-----------------|-----------------|-----------------|
|-----------------|-----------------|-----------------|-----------------|
|-----------------|-----------------|-----------------|-----------------|
|-5-5-5-5-5-5-5-5-|-4-4-4-4-4-4-4-4-|-3-3-3-3-3-3-3-3-|-2-2-2-2-2-2-2-2-|

|-----------------|-----------------|-----------------|-----------------|
|-----------------|-----------------|-----------------|-----------------|
|-----------------|-----------------|-----------------|-----------------|
|-5-5-5-5-5-5-5-5-|-4-4-4-4-4-4-4-4-|-3-3-3-3-3-3-3-3-|-2-2-2-2-2-2-2-2-|

|-----------------|-----------------|-----------------|-----------------|
|-----------------|-----------------|-----------------|-----------------|
|-5-5-5-5-5-5-5-5-|-----------------|-5-5-5-5-5-5-5-5-|-----------------|
|-----------------|-3-3-3-3-3-3-3-3-|-----------------|-3-3-3-3-3-3-3-3-|

|-----------------|-----------------|-----------------|-----------------|
|-----------------|-----------------|-----------------|-----------------|
|-5-5-5-5-5-5-5-5-|-----------------|-2-2-2-2-2-2-2-2-|-2-2-2-2-2-2-2-2-|
|-----------------|-3-3-3-3-3-3-3-3-|-----------------|-----------------|

|-----------------|-----------------|-----------------|-----------------|
|-----------------|-----------------|-----------------|-----------------|
|-----------------|-----------------|-----------------|-----------------|
|-5-5-5-5-5-5-5-5-|-4-4-4-4-4-4-4-4-|-3-3-3-3-3-3-3-3-|-2-2-2-2-2-2-2-2-|

|-----------------|-----------------|-----------------|-----------------|
|-----------------|-----------------|-----------------|-----------------|
|-----------------|-----------------|-----------------|-----------------|
|-5-5-5-5-5-5-5-5-|-4-4-4-4-4-4-4-4-|-3-3-3-3-3-3-3-3-|-2-2-2-2-2-2-2-2-|

|-----------------|-----------------|-----------------|-----------------|
|-----------------|-----------------|-----------------|-----------------|
|-5-5-5-5-5-5-5-5-|-----------------|-5-5-5-5-5-5-5-5-|-----------------|
|-----------------|-3-3-3-3-3-3-3-3-|-----------------|-3-3-3-3-3-3-3-3-|

|-----------------|-----------------|-----------------|-----------------|
|-----------------|-----------------|-----------------|-----------------|
|-5-5-5-5-5-5-5-5-|-----------------|-2-2-2-2-2-2-2-2-|-2-2-2-2-2-2-2-2-|
|-----------------|-3-3-3-3-3-3-3-3-|-----------------|-----------------|

|-----------------|-----------------|-----------------|-----------------|
|-----------------|-----------------|-----------------|-----------------|
|-5-5-5-5-5-5-5-5-|-----------------|-5-5-5-5-5-5-5-5-|-----------------|
|-----------------|-3-3-3-3-3-3-3-3-|-----------------|-3-3-3-3-3-3-3-3-|

|-----------------|-----------------|-----------------|-----------------|
|-----------------|-----------------|-----------------|-----------------|
|-5-5-5-5-5-5-5-5-|-----------------|-2-2-2-2-2-2-2-2-|-2-2-2-2-2-2-2-2-|
|-----------------|-3-3-3-3-3-3-3-3-|-----------------|-----------------|

			x4
||---------------------------||
||-*---------------5-------*-||
||-*-5h7-7-7-7---7-----7-7-*-||
||---------------------------||
  development and support by
dmitry ivanov