rock
 
|tablatures   |lyrics   |discussion forums   |more tabs @ XGuitar.com

Ramones tabs

Teenage Lobotomy bass tab

artist: The Ramones 
song: Teenage Labotomy 
album: Rocket to Russia 
tabbed by: Brady Newbill 
regular tuning(E,A,D,G) 
riff 1 
G--------------------------------- 
D--------------------------------- 
A-----------7-9------------7-9---- 
E-7-77777777-----7-77777777------- 

riff 2 
G----------------------- 
D----------------------- 
A-7-55--7-55----7-55---- 
E-----5-----5-------5--- 

riff 3 
G------------------------------ 
D------------------------------ 
A----5-5-5-5-5-5-55----55555--- 
E-5-3---------------5-3-------- 

verse 
G---------------------| 
D---------------------| 
A-----------7-7777777-| 
E-5-5555555-----------| 

if there's aproblem e-mail me at bn85@bellsouth.net.
  development and support by
dmitry ivanov