rock
 
|tablatures   |lyrics   |discussion forums   |more tabs @ XGuitar.com

Ramones tabs

Swallow My Pride bass tab

Swallow my Pride
By the Ramones
Tabbed by bassplayerarg@hotmail.com

Fig 1 Intro

|---------------------------------|
|---------------------------------|
|---------------------------------|
|-7-7-7-7-4-4-4-4-2-2-2-2-4-4-4-4-| x2

Fig 2 Verse

|-----------------|    |-----------------|
|-----------------| x3 |-7-7-7-7-9-9-9-9-|
|-----------------|    |-----------------|
|-7-7-7-7-7-7-7-7-|    |-----------------|

|-----------------|-----------------|
|-----------------|-7-7-7-7-9-9-9-9-|
|-----------------|-----------------|
|-7-7-7-7-7-7-7-7-|-----------------| all that x4

Fig 3 Chorus

|---------------------------------|
|---------------------------------|
|-5-5-5-5-5-5-5-5-7-7-7-7-7-7-7-7-|
|---------------------------------|

|-----------------|
|-----------------|
|---------7-7-7-7-|
|-7-7-7-7---------| x3

Bridge

|-----------------|
|-----------------|
|-7-7-7-7---------|
|---------7-7-7-7-| x3

|-----------------|
|-----------------|
|-----------------|
|-9-9-9-9-7-7-7-7-|
  development and support by
dmitry ivanov