rock
 
|tablatures   |lyrics   |discussion forums   |more tabs @ XGuitar.com

Ramones tabs

Strength to Endure bass tab

Ramones Strength to endure from Mondo Bizarro

Beginning and verses

G--------------------------------------------
D--------------------------------------------
A-3-3-3-3-2-2-2-2----------------------
E------------------------5-5-3-5---3-5-0

chorus


G---------------------------------------------------------------------------
-----------------------------------------------------------
D---------------------------------------------------------------------------
-------------------------------------------------------------
A-3-3-3-3-3-3-3-3------------------------3-3-3-3-3-3-3-3--------------------
---3-3-3-3-3-3-3-3-----------------------
E------------------------5-5-5-5-5-5-5-5-----------------------3-3-3-3-3-3-3
-3------------------------5-5-5-5-5-5-5-5-

G---------------------------------------------
D---------------------------------------------
A----------------------------------------------
E-3-3-3-3-3-3-3-3-1-1-1-1-1-1-1-1-


submitted by ian higbee nekroskankliac@hotmail.com
  development and support by
dmitry ivanov