rock
 
|tablatures   |lyrics   |discussion forums   |more tabs @ XGuitar.com

Ramones tabs

Somebody to Love bass tab

Somebody to love

The Ramones

Verse - Post Chorus
|-----------------|-----------------|
|-----------------|-----------------|
|-----------------|-5-5-5-5-5-5-5-5-|
|-5-5-5-5-5-5-5-5-|-----------------|

Chorus
|-----------------|-----------------|
|-----------------|-----------------|
|-----------------|-----------------|
|-5-7-8-8---7-7---|-5-5---5-5-5-5-5-|

Bridge - Outro
|-----------------|-----------------|
|-----------------|-----------------|
|-----------------|-----------------|
|-5-5-5-5-5-5-5-5-|-5-5-5-5-5-5-5-5-|

|-----------------|-----------------|
|-----------------|-----------------|
|-3-3-3-3-3-3-3-3-|-5-5-5-5-5-5-5-5-|
|-----------------|-----------------|
  development and support by
dmitry ivanov