rock
 
|tablatures   |lyrics   |discussion forums   |more tabs @ XGuitar.com

Ramones tabs

She's a Sensation guitar tab

Tab: She's A Sensation

PM = Palm Mute
K = fret 11
x = muted with finger

Intro:
E	---------------------------------------------------------------
B	---------------------------------------------------------------
G	-7------------------------------7------------------------------
D	-7--------------5-------7-------7--------------5-------7-------
A	-5--------------5-------7-------5--------------5-------7-------
E	----------------3-------5----------------------3-------5-------

             PM_____________________________________________________________
E	------------------------------------------------------------------
B	------------------------------------------------------------------
G	-7-7-7-7-7-7-7-7-7-7-7-7-7-7-7-7-7-7-7-7-7-7-7-7-7-7-7-7-7-7-7-7--
D	-7-7-7-7-7-7-7-7-7-7-7-7-7-7-7-7-7-7-7-7-7-7-7-7-7-7-7-7-7-7-7-7--
A	-5-5-5-5-5-5-5-5-5-5-5-5-5-5-5-5-5-5-5-5-5-5-5-5-5-5-5-5-5-5-5-5--
E	------------------------------------------------------------------

Chorus:
             PM______________________________
E	------------------------------------------------------------------
B	------------------------------------------------------------------
G	-7-7-7-7-7-7-7-7-7-7-7-7-7-7-7-7----------------------------------[x4]
D	-7-7-7-7-7-7-7-7-7-7-7-7-7-7-7-7-5-5-5-5-5-5-5-5-7-7-7-7-7-7-7-7--
A	-5-5-5-5-5-5-5-5-5-5-5-5-5-5-5-5-5-5-5-5-5-5-5-5-7-7-7-7-7-7-7-7--
E	---------------------------------3-3-3-3-3-3-3-3-5-5-5-5-5-5-5-5--

Verse 1:
E	-----------------------------------------------------------------
B	-----------------------------------------------------------------
G	-----------------------------------------------------------------
D	-5-5-5-5-5-5-5-5-7-7-7-7-7-7-7-7-5-5-5-5-5-5-5-5-7-7-7-7-7-7-7-7-
A	-5-5-5-5-5-5-5-5-7-7-7-7-7-7-7-7-5-5-5-5-5-5-5-5-7-7-7-7-7-7-7-7-
E	-3-3-3-3-3-3-3-3-5-5-5-5-5-5-5-5-3-3-3-3-3-3-3-3-5-5-5-5-5-5-5-5-

E	-----------------------------------------------------------------
B	-----------------------------------------------------------------
G	---------------------------------7-7-7-7-7-7-7-7-4-4-4-4-4-4-4-4-
D	-5-5-5-5-5-5-5-5-7-7-7-7-7-7-7-7-7-7-7-7-7-7-7-7-4-4-4-4-4-4-4-4-
A	-5-5-5-5-5-5-5-5-7-7-7-7-7-7-7-7-5-5-5-5-5-5-5-5-2-2-2-2-2-2-2-2-
E	-3-3-3-3-3-3-3-3-5-5-5-5-5-5-5-5---------------------------------

Guitar Solo:
E	------------------------------------------------
B	------------------------------------------------
G	-7-7---6----------------------------------------
D	-7-7---6--------------------------7-7-7-7-------
A	-5-5---4----------6-6-6-6-9-9-9-9---------------
E	----------7-7-7-7-------------------------------

Verse 2:
             PM______________________________
E	-----------------------------------------------------------------
B	-----------------------------------------------------------------
G	-9-9-9-9-9-9-9-9-9-9-9-9-9-9-9-9---------------------------------
D	-9-9-9-9-9-9-9-9-9-9-9-9-9-9-9-9-7-7-7-7-7-7-7-7-9-9-9-9-9-9-9-9- [x2]
A	-7-7-7-7-7-7-7-7-7-7-7-7-7-7-7-7-7-7-7-7-7-7-7-7-9-9-9-9-9-9-9-9-
E	---------------------------------5-5-5-5-5-5-5-5-7-7-7-7-7-7-7-7-

E	-------------------------------------------------------------------
B	-------------------------------------------------------------------
G	-------------------------------------------------------------------
D	-7-7-7-7-7-7-7-7-9-9-9-9-9-9-9-9-9-9-9-9-9-9-9-9-9-9-9-9-9-9-9-9-9-
A	-7-7-7-7-7-7-7-7-9-9-9-9-9-9-9-9-9-9-9-9-9-9-9-9-9-9-9-9-9-9-9-9-9-
E	-5-5-5-5-5-5-5-5-7-7-7-7-7-7-7-7-7-7-7-7-7-7-7-7-7-7-7-7-7-7-7-7-7-

The Ahas:
E	-----------------------------------------------------------------
B	-----------------------------------------------------------------
G	-9-9-9-9-9-9-9-9-9-9-9-9-9-9-9-9---------------------------------
D	-9-9-9-9-9-9-9-9-9-9-9-9-9-9-9-9-7-7-7-7-7-7-7-7-9-9-9-9-9-9-9-9- [x2]
A	-7-7-7-7-6-6-6-6-x-x-x-x-x-x-x-x-7-7-7-7-7-7-7-7-9-9-9-9-9-9-9-9-
E	-----------------9-9-9-9-7-7-7-7-5-5-5-5-5-5-5-5-7-7-7-7-7-7-7-7-

Chorus:
             PM______________________________
E	-----------------------------------------------------------------
B	-----------------------------------------------------------------
G	-9-9-9-9-9-9-9-9-9-9-9-9-9-9-9-9---------------------------------
D	-9-9-9-9-9-9-9-9-9-9-9-9-9-9-9-9-7-7-7-7-7-7-7-7-9-9-9-9-9-9-9-9- [x4]
A	-7-7-7-7-7-7-7-7-7-7-7-7-7-7-7-7-7-7-7-7-7-7-7-7-9-9-9-9-9-9-9-9-
E	---------------------------------5-5-5-5-5-5-5-5-7-7-7-7-7-7-7-7-

Verse 1:
E	-----------------------------------------------------------------
B	-----------------------------------------------------------------
G	-------------------------------------------9------6--------------
D	-7------9------7------9------7------9------9------6-------------- [x2]
A	-7------9------7------9------7------9------7------4--------------
E	-5------7------5------7------5------7----------------------------

Guitar Solo:
E	-------------------------------------------
B	-------------------------------------------
G	-9-9---8-----------------------------------
D	-9-9---8--------------------------9-9-9-9--
A	-7-7---6----------8-8-8-8-K-K-K-K----------
E	----------9-9-9-9--------------------------

Verse 2:
             PM______________________________
E	-----------------------------------------------------------------
B	-----------------------------------------------------------------
G	-K-K-K-K-K-K-K-K-K-K-K-K-K-K-K-K--------------------------------- [X2]
D	-K-K-K-K-K-K-K-K-K-K-K-K-K-K-K-K-9-9-9-9-9-9-9-9-K-K-K-K-K-K-K-K-
A	-9-9-9-9-9-9-9-9-9-9-9-9-9-9-9-9-9-9-9-9-9-9-9-9-K-K-K-K-K-K-K-K-
E	---------------------------------7-7-7-7-7-7-7-7-9-9-9-9-9-9-9-9-

E	-----------------------------------------------------------------
B	-----------------------------------------------------------------
G	-----------------------------------------------------------------
D	-9-9-9-9-9-9-9-9-K-K-K-K-K-K-K-K-K-K-K-K-K-K-K-K-K-K-K-K-K-K-K-K-
A	-9-9-9-9-9-9-9-9-K-K-K-K-K-K-K-K-K-K-K-K-K-K-K-K-K-K-K-K-K-K-K-K-
E	-7-7-7-7-7-7-7-7-9-9-9-9-9-9-9-9-9-9-9-9-9-9-9-9-9-9-9-9-9-9-9-9-

The Aha's & Final Aha's:
E	-----------------------------------------------------------------
B	-----------------------------------------------------------------
G	-K-K-K-K-K-K-K-K-K-K-K-K-K-K-K-K---------------------------------
D	-K-K-K-K-K-K-K-K-K-K-K-K-K-K-K-K-9-9-9-9-9-9-9-9-K-K-K-K-K-K-K-K- [X4]
A	-9-9-9-9-8-8-8-8-x-x-x-x-x-x-x-x-9-9-9-9-9-9-9-9-K-K-K-K-K-K-K-K-
E	-----------------K-K-K-K-9-9-9-9-7-7-7-7-7-7-7-7-9-9-9-9-9-9-9-9-

The Final Chord:
E	-------------
B	-K-----------
G	-K-----------
D	-x-----------
A	-9-----------
E	-------------
  development and support by
dmitry ivanov