rock
 
|tablatures   |lyrics   |discussion forums   |more tabs @ XGuitar.com

Ramones tabs

Sheena Is a Punk Rocker bass tab

Sheena is a Punk Rocker
By The Ramones
Tabbed by bassplayerarg@hotmail.com

Verse

|---------------------------------|
|---------------------------------|
|---------------------------------|
|-5-5-5-5-5-5-5-5-3-3-3-3-5-5-5-5-| x2

“But she just couldn’t stay...” part

|-----------------------------------------|
|-----------------------------------------|
|---------5h7-7-7-7-7---------5h7-7-7-7-7-|
|-7-7-7-7-------------7-7-7-7-------------|

“New York City really...” part

|---------------------------------|
|---------------------------------|
|---------------------------------|
|-5-5-5-5-5-5-5-5-3-3-3-3-3-3-3-3-|

Chorus

|---------------------------------|
|---------------------------------|
|-3-3-3-3-3-3---------------------|
|-------------3-3-3-3-5-5-5-5-5-5-|x4

|---------|---------------------------|
|---------|---------------------------|
|-3-3-3-3-|-7-7-7-7-------------------|
|---------|---------5-5-5-7-7-7-9-9-9-|
  development and support by
dmitry ivanov