rock
 
|tablatures   |lyrics   |discussion forums   |more tabs @ XGuitar.com

Ramones tabs

Rockaway Beach bass tab

Rockaway Beach
By The Ramones
Tabbed by bassplayerarg@hotmail.com

Verse

|---------------------------------|
|---------------------------------|
|---------------------------------|
|-0-0-0-0-0-0-0-0-0-0-0-0-0-0-0-0-| x2

|---------------------------------|
|---------------------------------|
|---------------------------------|
|-5-5-5-5-5-5-5-5-5-5-5-5-5-5-5-5-|

|---------------------------------|
|---------------------------------|
|---------------------------------|
|-7-7-7-7-7-7-7-7-7-7-7-7-7-7-7-7-|

Chorus

|---------------------------------|
|---------------------------------|
|---------------------------------|
|-0-0-0-0-0-0-0-0-5-5-5-5-5-5-5-5-|

|---------------------------------|
|---------------------------------|
|---------------------------------|
|-0-0-0-0-0-0-0-0-7-7-7-7-7-7-7-7-|

“It’s not far...” part

|---------------------------------|---------------------------------|
|---------------------------------|---------------------------------|
|---------------------------------|---------------------------------|
|-0-0-0-0-0-0-0-0-5-5-5-5-5-5-5-5-|-0-0-0-0-0-0-0-0-5-5-5-5-7-7-7-7-|
  development and support by
dmitry ivanov