rock
 
|tablatures   |lyrics   |discussion forums   |more tabs @ XGuitar.com

Ramones tabs

Poison Heart bass tab

Artist: The Ramones
Song: Poinson Heart


Intro:
G|---------------------|------------------------|-----------------------------------|
D|---------------------|------------------------|-----------------------------------|
A|-4--44444------------|-4--4444---7------------|-4--44444--------------------------|
E|------------7--77777-|---------------7--77777-|-----------7--77777--5--55555-55555|


Verse
G|-----------------|----------------------------------|
D|-----------------|----------------------------------|
A|-4444444--7777777|----------------------------------|
E|-----------------|-5--555---7--777------------------|

Chorus
G|---------------------------------------------------------------------------|
D|---------------------------------------------------------------------------|
A|-------------------4--4444----------------------------4--4444--4--4444-----|
E|-5--5555--7--7777----------5--5555--5--5555--7--7777-----------------------|

Bridge
G|------------------------------------------|X2
D|------------------------------------------|
A|-7-777777---------------------------------|
E|-----------5-555555-----------------------|


Outro
G|------------------------------------------------|
D|------------------------------------------------|
A|-------4~---------------------------------------|
E|-5--7-------------------------------------------|

Intro
Verse x2
Chorus x2
intro
verse x2
Chorus x2
intro
bridge
verse x2
chorusx3
Intro
  development and support by
dmitry ivanov