rock
 
|tablatures   |lyrics   |discussion forums   |more tabs @ XGuitar.com

Ramones tabs

Pinhead guitar tab

Date: Wed, 12 Feb 2003 19:47:22 EST
From: Wlmsk8@aol.com
Subject: r/ramones/pinhead.crd

Artist: Ramones
Song: Pinhead

Tabbed by: Wesley

This is my first tab I have put on the internet, I hope you like it.  It
is pretty close but I don't think it's 100% maybe 99% so here it goes!


Intro/Main Riff: Drums, then, gabba gabba we accept...
E------------------------------------
B------------------------------------
G-------------------------9-11-------     x4
D--10---------------------9-11-9-11--
A--10--11-11-11-11-11-11--7-9--9-11--
E--8---9--9--9--9--9--9--------7-9---

Verse: I don't wanna be a...
E------------------------------------
B------------------------------------
G------------------------------9-11--     x4
D--10---------------------9-11-9-11--
A--10--11-11-11-11-11-11--9-11-7-9---
E--8---9--9--9--9--9--9---7-9--------


Pre Chorus:
E----------------------------
B----------------------------
G----------------------------
D--9-9-9-9-9-9-9-9-9-9-9-9---  then the Main Riff
A--9-9-9-9-9-9-9-9-9-9-9-9---
E--7-7-7-7-7-7-7-7-7-7-7-7---

Chorus (there are no words):
E------------------------------------
B------------------------------------
G--------------------9---------------
D--11-11-11-11-11-11-9-9-9-9-9-9-9-6-
A--11-11-11-11-11-11-7-9-9-9-9-9-9-6-
E--9--9--9--9--9--9----7-7-7-7-7-7-4-

Song order: Main Riff----Verse-----Pre Chorus----Main
Riff----Verse----Pre Chorus----Main riff----Chorus-(D-U-M-B)----Main
Riff----Verse----Pre Chorus----Main Riff----Chorus (die out)-----little
midget voices.                GABBA GABBA HEY
  development and support by
dmitry ivanov