rock
 
|tablatures   |lyrics   |discussion forums   |more tabs @ XGuitar.com

Ramones tabs

Pinhead bass tab

Ramones - Pinhead
This song is tabbed by Lexvermazen@hotmail.com

178bpm

Riff 1
G :-----------------:-----------------:
D :-----------------:-----------------:
A :-----------------:-7---9-----------:
E :-7/9-9-9-9-9-9-9-:---------7---9---:

Riff 2
G :-----------------:-----------------:
D :-----------------:-----------------:
A :-----------------:---------5---7---:
E :-5/7-7-7-7-7-7-7-:-5---7-----------:

Riff 3
G :-----------------:
D :-----------------:
A :-----------------:
E :-7-7-7-7-7-7-7-7-:

Riff 4
G :-----------------:-----------------:
D :-----------------:-----------------:
A :---------------5-:-0-0-0-0-0-0-0-9-:
E :-7-7-7-7-7-7-7---:-----------------:

This is how it's played:

Intro: Drums only
	Riff 1   4x
	Riff 2	 4x   
	Riff 3   2x
	Riff 1   4x
	Riff 2	 4x     
	Riff 3   2x
	Riff 1   4x
	Riff 4   2x
       Drums only       
	Riff 2	
       Drums only       
	Riff 2 
	Riff 3   2x
	Riff 1   4x
	Riff 2	 4x     
	Riff 3   2x
	Riff 1   4x
Outr:   Riff 4   Repeat and fade verse 4
  development and support by
dmitry ivanov