rock
 
|tablatures   |lyrics   |discussion forums   |more tabs @ XGuitar.com

Ramones tabs

Needles and Pins bass tab

Needles and Pins
Ramones

Main Ruff
G-----------------------
D---11---11------88---88     just play this ruff for most of the song
A-9----9------6----6----
E-----------------------

Pre Chorus
G--------------------
D---44---44---66---66
A-2----2----4----4---
E--------------------

Bridge
G-------------33--33--------------------
D---33--33--1---1-----------------------
A-1---1----------------44---44----------
E--------------------2----2----11111111-
  development and support by
dmitry ivanov