rock
 
|tablatures   |lyrics   |discussion forums   |more tabs @ XGuitar.com

Ramones tabs

Merry Christmas (I Don't Want to Fight Tonight) bass tab

Ramones - Merry Christmas
Tabbed By: ramones_r_punkgods
Email: kcs_06@hotmail.com

Tuning: Standard (E A D G)

If you are a big ramones fans you will notice that this the rythym is the same
as Blitzkrieg Bop, only slower and with different notes.

Intro
G|--------------------------------------------------||
D|--------------------------------------------------||
A|-------888-10 10-10-10-10-------------------------||
E|8888888-------------------------------------------||

Post Intro

G|--------------------------------------------------------||
D|--------------------------------------------------------||
A|----88---------------------------------10-10-10-10-10-10||
E|888----10-10-10-10-10-10-10----88888--------------------||

Verse
G|-------------------------------------------------------------||
D|-------------------------------------------------------------||
A|-------888-10-10-10-10-10-10---------------------------------||
E|8888888------------------------------------------------------||

Post Intro

Chorus
G|---------------------------------------------------------------------------||
D|---------------------------------------------------------------------------||
A|888888---------888888-55555555-10-10-10-10-10-10-10------------------------||
E|-------888888--------------------------------------------------------------||


Outro
G|-----------------------------------------------------------||
D|-----------------------------------------------------------||
A|--------10-10-10-10-10-10-10-10----------------------------||
E|-888888------------------------------8---8---8---8---8-----||

Order isnt hard to figure out.
  development and support by
dmitry ivanov